This is the basic finger-picking around the chord sequence so it's pretty easy and sounds lovely. You can use the G string in the finger picking too.

Intro      G G
A----------------2-------------2-----
E-------------3-----3-------3-----3--
C----------2-------------2-----------
G------------------------------------

    GG    C        D
A-------2---------------2---------------3-----------------0---------
E----3-----3----3----3-----3----3----0-----0-----0-----2-----2-----2
C-2-----------2---2----------2----0-----------0-----2-----------2---
G-------------------------------------------------------------------
X2

VERSE
   GG    C        D
A-------2---------------2---------------3-----------------0---------
E----3-----3----3----3-----3----3----0-----0-----0-----2-----2-----2
C-2-----------2---2----------2----0-----------0-----2-----------2---
G-------------------------------------------------------------------
X2

BRIDGE
   EmD    C        G
A-------2---------------0---------------3-----------------2---------
E----3-----3----3----2-----2----2----0-----0-----0-----3-----3-----3
C-4-----------4---2----------2----0-----------0-----2-----------2---
G-------------------------------------------------------------------
X2

Chorus
  EmG    Em        G
A-------2---------------2---------------2-----------------2---------
E----3-----3----3----3-----3----3----3-----3-----3-----3-----3-----3
C-4-----------4---2----------2----4-----------4-----2-----------2---
G-------------------------------------------------------------------


- Intro CHORDS -
A---------2------------------0-----------
E------3-----3-----3-------2----2-----2--
C---4-----------4-------2----------2-----
G----------------------------------------    
And these are the chord progressions.

Intro {plucked}
G C D     X2

VERSE {plucked}
G                       C                D
Another turning point a fork stuck in the road,
G                                C                   D  
Time grabs you by the wrist, and directs you where to go
Em          D            C                 G
So make the best of this test and don't ask why
Em         D              C                 G
It's not a question but a lesson learned in time
Em                    G           Em           G             
Its something unpredictable but in the end it's right
Em                 D            G
I hope you had the time of your life.

INTERLUDE
G C D   - {plucked}
G C D   - {strummed}

VERSE 2 {strummed}
G                        C                    D
Take the photographs and still frames in your mind
G                         C                    D
Hang it on a shelf and in good health and good time
Em         D                 C          G
Tattoos the memories and this test go on trial
Em            D            C             G    
For what it's worth it was worth all the while
Em                    G           Em           G             
Its something unpredictable but in the end it's right
Em                 D            G
I hope you had the time of your life.

Solo {strummed}
G C D
G C D 
G C D 
G C D 
Em D C G
Em D C C

{strummed}
Em                    G           Em           G             
Its something unpredictable but in the end it's right
Em                 D            G
I hope you had the time of your life.

INTERLUDE
G C D        - {strummed}
G C D        - {plucked}

{plucked getting slower}
Em                    G           Em           G             
Its something unpredictable but in the end it's right
Em                 D            G
I hope you had the time of your life.

Outro {plucked getting slower}
G C D  
G C D        
G - {strummed down slowly let all strings ring}    
+29
-1