Intro:
          A                  D               
|-0---4h5-4----2---|-----4h5-4----2---|
|------------------|------------------|
|------------------|-2----------------|
|---2--------2---2-|---2--------2---2-|

     Gbm       E            D     
|-----4---------4---|-----4h5-4----2----|    
|-4-----------------|-------------------| 
|-----------6-------|-2-----------------| 
|---2---2-----2---2-|---2--------2---2--|
 
Verse:
   A                   D
My ship went down in a sea of sound
       Gbm     E         D
When I woke up alone I had everything
  A                    D
A handful of moments I wished I could change
      Gbm           E            D
And a tongue like a nightmare that cut like a blade
     A                   D
In a city of fools I was careful and cool
         Gbm      E          D
But they tore me apart like a hurricane
  A
A handful of moments 
  D                              Gbm E   D
I wish I could change but I was carried away

Chorus:
         A
Give me therapy
      E            Gbm
I'm a walking travesty
        D
But I'm smiling at everything
A                 E                 Gbm
Therapy, you were never a friend to me
            D
And you can keep all your misery.


          A                  D             Gbm       E            D             
|-0---4h5-4---2---|-----4h5-4---2---|-----4---------4---|-----4h5-4---2----|
|-----------------|-----------------|-4-----------------|------------------|
|-----------------|-2---------------|-----------6-------|-2----------------|
|---2-----------2-|---2-----------2-|---2---2-----2---2-|---2-----------2--|


Verse 2:
   A
My lungs gave out
     D
As i faced the crowd
             Gbm          E           D               
I think that keeping this up could be dangerous
    A
I'm flesh and bone
       D
I'm a rolling stone
        Gbm     E         D
and the experts say I'm delirious

Chorus:
         A
Give me therapy
      E            Gbm
I'm a walking travesty
        D
But I'm smiling at everything
A                 E                 Gbm
Therapy, you were never a friend to me
            D
And you can take back your misery

Bridge:
Bm                     A
Arrogant boy, love yourself so no one has to
        E
They're better off without you
         Esus4             E
- They're better off without you -
Bm                    A
Arrogant boy, cause a scene like you're supposed to
        Gbm
They'll fall asleep without you
       D                       A
You're lucky if your memory remains

Chorus:
         A
Give me therapy
      E            Gbm
I'm a walking travesty
        D
But I'm smiling at everything

A                 E                 Gbm
Therapy, you were never a friend to me
            D
And you can take back your misery
A
Therapy
      E            Gbm
I'm a walking travesty
        D
But I'm smiling at everything
A                 E                 Gbm
Therapy, you were never a friend to me
            D
And you can choke on your misery.

Outro:
          A                  D             Gbm       E    D                                   
|-0---4h5-4---2---|-----4h5-4---2---|-----4---------4-----5-|
|-----------------|-----------------|-4-------------------0-|
|-----------------|-2---------------|-----------6---------2-|
|---2-----------2-|---2-----------2-|---2---2-----2---2---2-|    
+49
-2