Chorus -Flute/Shakuhachi-:

xA|---5---5-------5---5-----5-------5-------5------|
xE|------------------------------------------------|
xC|------------------------------------------------|
xG|-0---0-------0---0-----0-------0-------0--------|

xA|---8---8-------8---8-----8-------8-------8------|
xE|------------------------------------------------|
xC|------------------------------------------------|
xG|-0---0-------0---0-----0-------0-------0--------|

xA|---1---1-------1---1-----1-------1-------1------|
xE|------------------------------------------------|
xC|------------------------------------------------|
xG|-0---0-------0---0-----0-------0-------0--------|

xA|---3---3-------3---3-----3-------3-------3------|
xE|------------------------------------------------|
xC|------------------------------------------------|
xG|-0---0-------0---0-----0-------0-------0--------|


Whistle:

xA|-10---15----------------------------------------|
xE|------------------------------------------------|
xC|------------------------------------------------|
xG|------------------------------------------------|


Intro -Guitar-:

xA|------------------------------------------------|
xE|----------------------------3----1--------------|
xC|-0-3---2------------------0---------------------|
xG|------------------------------------------------|

xA|------------------------------------------------|
xE|----------------------------3---1---------------|
xC|-0-3---2------------------0---------------------|
xG|------------------------------------------------|

Verse -Horns-:

xA|-----------------3-1----------------------------|
xE|-3-3-3---3-3-3-----------1-3-4---6-4-3-1--------|
xC|------------------------------------------------|
xG|------------------------------------------------|

xA|-----------------3-5-----1-3-5---6-5-3-1--------|
xE|-3-3-3---3-3-3----------------------------------|
xC|------------------------------------------------|
xG|------------------------------------------------|

xA|-10-8-----------------------8----10-14---15-----|
xE|--------10-8--------------9---10----------------|
xC|---------------10-7-----8-----------------------|
xG|------------------------------------------------|


Bridge -Horns-:

xA|-1-3-4---3-4---3-4---6-4-3-1--------------------|
xE|------------------------------------------------|
xC|------------------------------------------------|
xG|------------------------------------------------|

xA|---1-1-1---1-1-1-----1-2------------------------|
xE|-1-----------------4-----2----------------------|
xC|---------------------------3--------------------|
xG|------------------------------------------------|

xA|---1-1-1---1-1-1-----1-3-----5-----7-1----------|
xE|-1-----------------4-----3-1---4-3-----4--------|
xC|------------------------------------------------|
xG|------------------------------------------------|

xA|-8-7-5-7-------5-7-8---10-8-8--7----------------|
xE|------------------------------------------------|
xC|------------------------------------------------|
xG|------------------------------------------------|

xA|-5-7-8---7-5-5-----3-5-3---1--------------------|
xE|-----------------------------4-3-4--------------|
xC|------------------------------------------------|
xG|------------------------------------------------|

xA|-8-7-5-7-------5-7-8---10-8-8--7----------------|
xE|------------------------------------------------|
xC|------------------------------------------------|
xG|------------------------------------------------|

xA|-5-7-8---7-5-5-----3-5-3------------------------|
xE|---------------------------4-1-----4-3-0--------|
xC|-------------------------------2----------------|
xG|------------------------------------------------|

xA|-1-3-8---1-3-10---3-5-11---5-11-----------------|
xE|------------------------------------------------|
xC|------------------------------------------------|
xG|------------------------------------------------|


Outro -Flute/Shakuhachi, Bells-:

-repeated-
xA|-3-6---3-5---3-6-3-5----------------------------|
xE|------------------------------------------------|
xC|------------------------------------------------|
xG|------------------------------------------------|

-repeated-
xA|---5-----3-----5---3----------------------------|
xE|------------------------------------------------|
xC|------------------------------------------------|
xG|-0-----0-----0---0------------------------------|

-repeated-
xA|-3-6-8-----5-6-10-------------------------------|
xE|------------------------------------------------|
xC|------------------------------------------------|
xG|------------------------------------------------|




"New Easy Ukulele Tabs" version:

A|---------------1-8---------------------1-8-----------------------------------------|
E|-----------1-2---------------------1-2--------------------6-4----1-2----2-1--------|
C|----1-0--3---------8-3--5---1-0--3-----------5-5-5--5-5-5------3------------3------|
G|--------------------------3---------------8---------------------------1------------|

A|-----------------1-3----1-3--4-3-----8------------------6---8-0--------------------|
E|----1-1-1--1-1-1-------------------4-----8-6---------------------------------------|
C|---------------------------------------------8-5-5--6-----5------------------------|
G|----------------------1----------3-----8--------------4----------------------------|

A|-----------------------------------------------------------------------------------|
E|-------------------6---------6---------6---6----6----6-------------6---------------|
C|----5---5----5---5----5----5----5----5---5----5----5---5----5----5----5------------|
G|------3---5----5--------5---------5----------------------5----5---------5----------|

A|-----------------------------------------------------------------------------------|
E|------6--------6---6----6----------------------------------------------------------|
C|----5---5----5---5----5------------------------------------------------------------|
G|----------5------------------------------------------------------------------------|
+11
-4