Intro:
 
PART 1 -x2-
 
   A|----5-10-5---5---|  x2
   E|0-7--------7---7-|
   C|-----------------|
   G|-----------------|
 
   A|----0h2---|  x4
   E|--3-----3-|
   C|0---------|
   G|----------|
 
PART 2 -x2-
 
   A|----5-10-5---5---|    
   E|0-7--------7---7-|
   C|-----------------|
   G|-----------------|
 
   A|----7-10-7---7---|    
   E|0-7--------7---7-|
   C|-----------------|
   G|-----------------|
 
   A|----0h2---|  x4
   E|--3-----3-|
   C|0---------|
   G|----------|
 
 
Verse -x4-:
 
A|----5-10-5---5---|  x2
E|0-7--------7---7-|
C|-----------------|
G|-----------------|
 
A|----0h2---|  x4
E|--3-----3-|
C|0---------|
G|----------|
 
 
Verse:
 
PART 1 -x2-
 
   A|----5-10-5---5---|    
   E|0-7--------7---7-|
   C|-----------------|
   G|-----------------|
 
   A|----7-10-7---7---|    
   E|0-7--------7---7-|
   C|-----------------|
   G|-----------------|
 
   A|----0h2---|  x4
   E|--3-----3-|
   C|0---------|
   G|----------|
 
PART 2 -x2-
 
   A|----5-10-5---5---|  x2
   E|0-7--------7---7-|
   C|-----------------|
   G|-----------------|
 
   A|----0h2---|  x4
   E|--3-----3-|
   C|0---------|
   G|----------|
 
 
Verse -x3-:
 
A|----5-10-5---5---|    
E|0-7--------7---7-|
C|-----------------|
G|-----------------|
 
A|----5-10-5---5---|    
E|--7--------7---7-|
C|0----------------|
G|-----------------|
 
A|--2-5-10-5-2-5-2---|    
E|-----------------0-|
C|2----------------0-|
G|-------------------|
 
 
Verse -x4-:
 
A|----5-10-5---5---|    
E|0-7--------7---7-|
C|-----------------|
G|-----------------|
 
A|----5-10-5---5---|    
E|--7--------7---7-|
C|0----------------|
G|-----------------|
 
A|--2-5-10-5-2-5-2---|    
E|-----------------0-|
C|2----------------0-|
G|-------------------|
 
 
Verse -x2-:
 
PART 1 -x2-
 
   A|----5-10-5---5---|  x2
   E|0-7--------7---7-|
   C|-----------------|
   G|-----------------|
 
   A|----0h2---|  x4
   E|--3-----3-|
   C|0---------|
   G|----------|
 
PART 2 -x2-
 
   A|----5-10-5---5---|    
   E|0-7--------7---7-|
   C|-----------------|
   G|-----------------|
 
   A|----7-10-7---7---|    
   E|0-7--------7---7-|
   C|-----------------|
   G|-----------------|
 
   A|----0h2---|  x4
   E|--3-----3-|
   C|0---------|
   G|----------|
+8
0