A------2-7-2---------2-7-2---------2-7-2---------2-7-2---- 
E--0-------------0-------------0-------------0---------7-- 
D--------------------------------------------------------- 
G----0-------0-----0-------0-----0-------0-----0---------- 


A------2-----------2----------------------------------2------------ 
E--7-----------7p0-----------7-------7---8---7h8\5----7-5h3\2-0---- 
C--4--------------------------------------------------------------- 
G----------0-----------0---------0--------------------------------- 


A--0-------------------------0---------------0---2---- 
E--------------2p0-----------------------0---0---0---- 
C----------------------------------------------------- 
G------5---------------5---------5-----------5---5---- 


A--3---3---7-----------3-----5---5---7---------9---2p7-- 
E--0-----------3p0-----0-----0-----------0h5p0---7------ 
C------------------------------------------------------- 
G--5-----5---5-------5-5-----5-----7---7---------------- 


A------2-7-2---------2-7-2---------2-7-2---------2-7-2---- 
E--0-------------0-------------0-------------0------------ 
C--------------------------------------------------------- 
G----0-------0-----0-------0-----0-------0-----0-------0-- 


A------------2~~----------5------3----- 
E--0----3---------------2------0------- 
C-----4---4-----------2------0---------   x2
G-------------------------------------- 


A------------2~~---------5-------3---------3------2---6---- 
E--0----3-----------------2--------0---------3------2------
C-----4---4-----------2----2--0------0---------3-----------
G----------------------------------------0--------------2--


A------2-7-2---------2-7-2----
E--0-------------0------------
C-----------------------------
G----0-------0-----0-------0--

Intro:
Em...
Em - Em - D - C

Em                 D   C
So close no matter how far
Em                          D   C
couldnt be much more from the heart
Em                   D   C
forever trusting who we are
G    B7         Em
and nothing else matters

never opened myself this way
life is ours, we live it our way
all these words I dont just say
and nothing else matters

trust I seek and I find in you
every day for us something new
Em                 D        C
open mind for a different view
G     B7         Em      C  A
and nothing else matters

   Chorus:
   D                        C  A
   never cared for what they do
   D                        C  A
   never cared for what they know
   D     Em
   but I know

so close no matter how far
couldnt be much more from the heart
forever trusting who we are
and nothing else matters

   Chorus - see above -

never opened myself this way
life is ours, we live it our way
all these words I dont just say

trust I seek and I find in you
every day for us something new
open mind for a different view
and nothing else matters

   Chorus:
   never cared for what they say
   never cared for games they play
   never cared for what they do
   never cared for what they know
   and I know

so close no matter how far
couldnt be much more from the heart
forever trusting who we are
no nothing else matters    
+32
-4