Shadows settle on the place…
                   S                S                 S                S    
A|--2---2-5-2---2-5-7-------7------7------------------------------------5-|
E|-----------------------------------3--------3------3-2------2-------2---|
C|--------------------0---0---0---0-----4---4---4---4----2---2---2---2----|
G|----0-------0---------0-------0---------0-------0--------0-------0------|

            Our minds are troubled by…
                   S                S                 S                S    
A|--2---2-5-2---2-5-7-------7------7------------------------------------5-|
E|-----------------------------------3--------3------3-2------2-------2---|
C|--------------------0---0---0---0-----4---4---4---4----2---2---2---2----|
G|----0-------0---------0-------0---------0-------0--------0-------0------|

    Destroy the middle...                                       From the perfect
                   S                S                 S                S    
A|--2---2-5-2---2-5-7-------7------7------------------------------------5-|
E|-----------------------------------3--------3------3-2------2-------2---|
C|--------------------0---0---0---0-----4---4---4---4----2---2---2---2----|
G|----0-------0---------0-------0---------0-------0--------0-------0------|

start to the finish line...                     But if
                   S                S                 S                S    
A|--2---2-5-2---2-5-7-------7------7------------------------------------5-|
E|-----------------------------------3--------3------3-2------2-------2---|
C|--------------------0---0---0---0-----4---4---4---4----2---2---2---2----|
G|----0-------0---------0-------0---------0-------0--------0-------0------|

   You’re still bleeding you’re the lucky one....
A|--2---------------------------2----------------------|
E|-----------------------------------------------------|
C|---------0------4------2-------------0------4------2-|
G|--0------0------0------0------0------0------0------0-|

   Setting fire to our insides for fun...                 Collecting
                   S                S                 S                S    
A|--2---2-5-2---2-5-7-------7------7------------------------------------5-|
E|-----------------------------------3--------3------3-2------2-------2---|
C|--------------------0---0---0---0-----4---4---4---4----2---2---2---2----|
G|----0-------0---------0-------0---------0-------0--------0-------0------|

    Names of the lovers that went wrong…
                   S                S                 S                S    
A|--2---2-5-2---2-5-7-------7------7--------------------------------------|
E|-----------------------------------3--------3------3-2------2-------2-3-|
C|--------------------0---0---0---0-----4---4---4---4----2---2---2---2----|
G|----0-------0---------0-------0---------0-------0--------0-------0------|
   
A|-------------------------------2-------7------7---------------------|
E|---------3-------3-------3----------------------2------2------2-3---|
C|---4---4---4---4---4---4---4-----0---0---0---0---2---2---2---2------|
G|-----0-------0-------0-------0-----0-------0-------0-------0--------|

- last line 4x, then back to the beginning and so on... The Bridge has the same pattern like the Verse -    
+1
-27