Chords in this song

chords or tablatures

Switch orientation
Lyrics don't fit on one line? Try landscape mode instead of portrait.

remember keys
The sound of money, the sound of pain

xA|--3-------3-------3-------5--------2-------2-------2------2-------|
xE|----0-------0-------0-------0--------1-------1-------1------1-----|
xC|------0-------0-------0-------0--------2-------2-------2------2---|
xG|--0-------0-------0-------0--------0-------0-------0------0-------|

Makes me start thinking I'm better off insane

Ax|--3-------3-------3-------3--------3-------2-------3------2-------|
Ex|----0-------0-------0-------0--------3-------3-------3------3-----|
Cx|------0-------0-------0-------0--------2-------2-------2------2---|
Gx|--0-------0-------0-------0--------0-------0-------0------0-------|


She's so tired that she hardly speaks
You can tell she's lost her one true love

Ax|--7---------------7----------------5-------5-------5------5-------|
Ex|----5-----5---------5-----5----------7-------7-------7------7-----|
Cx|------5-----5---------5-----5----------7-------7-------7------7---|
Gx|--------------5---------------5-----------------------------------|

So now we write each other back and forth

Ax|--3-------3-------3-------3--------3-------2-------3------2-------|
Ex|----0-------0-------0-------0--------3-------3-------3------3-----|
Cx|------0-------0-------0-------0--------2-------2-------2------2---|
Gx|--0-------0-------0-------0--------0-------0-------0------0-------|

Just to find some meaning in the girl

Ax|--3-------3-------3-------3--------5-------5-------5------5-------|
Ex|----5-------5-------5-------5--------7-------7-------7------7-----|
Cx|------5-------5-------5-------5--------7-------7-------7------7---|
Gx|------------------------------------------------------------------|



xA|--3-------3-------3-------3--------3-------3-------3------3-------|
xE|----0-------0-------0-------0--------0-------0-------0------0-----|
xC|------0-------0-------0-------0--------0-------0-------0------0---|
xG|--0-------0-------0-------0--------0-------0-------0------0-------|

These hurtful words, these hurtful names

xA|--3-------3-------3-------5--------2-------2-------2------2-------|
xE|----0-------0-------0-------0--------1-------1-------1------1-----|
xC|------0-------0-------0-------0--------2-------2-------2------2---|
xG|--0-------0-------0-------0--------0-------0-------0------0-------|

I know that you planned it out this way

Ax|--3-------3-------3-------3--------3-------2-------3------2-------|
Ex|----0-------0-------0-------0--------3-------3-------3------3-----|
Cx|------0-------0-------0-------0--------2-------2-------2------2---|
Gx|--0-------0-------0-------0--------0-------0-------0------0-------|

I can't stop thinking that you broke my mind
Yeah, I kissed someone, did it all the time

Ax|--7-------7-------7-------7--------5-------5-------5------5-------|
Ex|----5-------5-------5-------5--------7-------7-------7------7-----|
Cx|------5-------5-------5-------5--------7-------7-------7------7---|
Gx|------------------------------------------------------------------|

Please baby, your scaring me now

Ax|--3-------3-------3-------3--------3-------2-------3------2-------|
Ex|----0-------0-------0-------0--------3-------3-------3------3-----|
Cx|------0-------0-------0-------0--------2-------2-------2------2---|
Gx|--0-------0-------0-------0--------0-------0-------0------0-------|

I knew I'd end up letting you down

Ax|--7-------7-------7-------7--------5-------5-------5------5-------|
Ex|----5-------5-------5-------5--------7-------7-------7------7-----|
Cx|------5-------5-------5-------5--------7-------7-------7------7---|
Gx|------------------------------------------------------------------|



xA|--3-------3-------3-------5--------2-------2-------2------2-------|
xE|----0-------0-------0-------0--------1-------1-------1------1-----|
xC|------0-------0-------0-------0--------2-------2-------2------2---|
xG|--0-------0-------0-------0--------0-------0-------0------0-------|



Ax|--3-------3-------3-------3--------3-------2-------3------2-------|
Ex|----0-------0-------0-------0--------3-------3-------3------3-----|
Cx|------0-------0-------0-------0--------2-------2-------2------2---|
Gx|--0-------0-------0-------0--------0-------0-------0------0-------|

Was it worth it now? With your hands in your pockets
You're crying out, "I am nothing without this"

Ax|--3-------3-------3-------3--------5-------5-------5------5-------|
Ex|----3-------3-------3-------3--------3-------3-------3------3-----|
Cx|------5-------5-------5-------5--------2-------2-------2------2---|
Gx|--0-------0-------0-------0--------0-------0-------0------0-------|

You know you're just a kid with nothing up ahead

Ax|--3-------3-------3-------3--------3-------3-------3------3-------|
Ex|----3-------3-------3-------3--------3-------3-------3------3-----|
Cx|------0-------0-------0-------0--------2-------2-------2------2---|
Gx|--0-------0-------0-------0--------0-------0-------0------0-------|

Except for years and years of tears and views
And you'll break your heart almost every time

Ax|--3-------3-------3-------3--------5-------5-------5------5-------|
Ex|----3-------3-------3-------3--------3-------3-------3------3-----|
Cx|------5-------5-------5-------5--------2-------2-------2------2---|
Gx|--0-------0-------0-------0--------0-------0-------0------0-------|

But when you fall, you get back up

Ax|--3-------3-------3-------3--------3-------3-------3------3-------|
Ex|----3-------3-------3-------3--------3-------3-------3------3-----|
Cx|------0-------0-------0-------0--------2-------2-------2------2---|
Gx|--0-------0-------0-------0--------0-------0-------0------0-------|

Cause in the end you will be


Ax|--3-------3-------3-------3--------5-------5-------3------3-------|
Ex|----5-------5-------5-------5--------7-------7-------7------7-----|
Cx|------5-------5-------5-------5--------7-------7-------7------7---|
Gx|------------------------------------------------------------------|

loved

xA|--3-------3-------3-------5--------2-------2-------2------2-------|
xE|----0-------0-------0-------0--------1-------1-------1------1-----|
xC|------0-------0-------0-------0--------2-------2-------2------2---|
xG|--0-------0-------0-------0--------0-------0-------0------0-------|

-be loved-

xA|--3-------3-------3-------5--------2-------2-------2------2-------|
xE|----0-------0-------0-------0--------1-------1-------1------1-----|
xC|------0-------0-------0-------0--------2-------2-------2------2---|
xG|--0-------0-------0-------0--------0-------0-------0------0-------|

Was it worth it now?
You're crying out

xA|--8-------8-------8-------8--------10-------10-------10------10---|
xE|----8-------8-------8-------8--------10-------10-------10------10-|
xC|------9-------9-------9-------9---------7-------7--------7-------7|
xG|------------------------------------0--------0-----0----------0---|

You know you're just a kid with nothing up ahead

xA|--12------12------12-------12-------12------12------12-----12-----|
xE|----12------12------12-------12-------12------14------12------12--|
xC|------12------12------12-------12-------12-------14------14-----14|
xG|------------------------------------------------------------------|

but in the end you will be 


xA|--8-------8-------8-------8--------10-------10-------10------10---|
xE|----8-------8-------8-------8--------10-------10-------10------10-|
xC|------9-------9-------9-------9---------7-------7--------7-------7|
xG|------------------------------------0--------0-----0----------0---|

loved

xA|--7---------------------------------------------------------------|
xE|--0---------------------------------------------------------------|
xC|--0---------------------------------------------------------------|
xG|--0---------------------------------------------------------------|



C                                G
The sound of money, the sound of pain

C                                        G
Makes me start thinking I'm better off insane

Am
She's so tired that she hardly speaks

G
You can tell she's lost her one true love

C                                    G
So now we write each other back and forth

F                 G               C  
Just to find some meaning in the girl

C                                  G
These hurtful words, these hurtful names

C                                   G
I know that you planned it out this way

F 
I can't stop thinking that you broke my mind

G
Yeah, I kissed someone, did it all the time

C                              G
Please baby, your scaring me now

F                 G           C
I knew I'd end up letting you down

F
Was it worth it now?


With your hands in your pockets

G                
You're crying out, "I am nothing without this"

C                               G
You know you're just a kid with nothing up ahead

F                                           
Except for years and years of tears and views

G
And you'll break your heart almost every time

Am                     D7
But when you fall, you get back up

F                    G            C G C G
Cause in the end you will be loved

F
Was it worth it now?

G
You're crying out

Am                              D7
You know you're just a kid with nothing up ahead

F                  G       C
but in the end you will be loved
This arrangement for the song is the author's own work and represents their interpretation of the song. You may only use this for private study, scholarship, or research. UkuWorld and its derivatives do not own any songs, lyrics or arrangements posted and/or printed.

There are no comments yet, be the first!

Leave a Comment

Your email address will not be published. Required fields are marked *

Want to talk about something more than only this song? Check out the UkuWorld Community today! Talk about similar interests or get some ukulele related help. Login with your UkuTabs account or create a new one and join the conversations.

Please do not ask for strumming patterns. Sharing online how to literally play a song (i.e. strumming, rhythm and tempo) is not allowed by the MPA (Music Publishers Association) because of copyright issues.

Carefully listen to the song and try to really "feel" the rhythm. Once you get the basics of strumming, I can assure you it'll go real quick. Maybe the strumming guide can help you on your way.

Discover UkuWorld