---0-------0--0---2-2-----0-------2-0-2-4-5-4-2-0
---2-0-2-3-0----3-2---5-4-2-3-2-0-3-------2------
---2-------1-1----2-------1-------2-------2------
---2-------2------4-------2-------0-------2------

---2----2-0-2-0---
---3-2-0--0-----3-
---2------1-------
---0------2-------

Chords: D     A     Bm     Gbm     G     D     G     A

Play the last A like this:

xA|-4
xE|-0
xC|-1
xG|-2    
+69
-43