Intro -x2-:
A|-----4--4-----4--4-----4--4-----4--4-----4--4-----4--4-----4--4-----4--4---|
E|--0--0--0--0--0--0--0--0--0--0--0--0--2--0--0--2--0--0--2--0--0--2--0--0---|
C|---------------------------------------------------------------------------| 
G|-----2--2-----2--2-----2--2-----2--2-----2--2-----2--2-----2--2-----2--2---|
              

Verse:    
The cracks of the pavement...          sung with the voice of an old friend                                                             
A|-----4--4-----4--4-----4--4-----4--4-----4--4-----4--4-----4--4-----4--4---|
E|--0--0--0--0--0--0--0--0--0--0--0--0--2--0--0--2--0--0--2--0--0--2--0--0---|
C|---------------------------------------------------------------------------|
G|-----2--2-----2--2-----2--2-----2--2-----2--2-----2--2-----2--2-----2--2---|

We've been here before, holding our hands to the tunes under the sun
A|-----4--4-----4--4-----4--4-----4--4-----4--4-----4--4-----4--4-|
E|--0--0--0--2--0--0-----0--0-----0--0-----0--0--2--0--0--2--0--0-|
C|----------------------------------------------------------------|
G|-----2--2-----2--2--2--------4--------2-----------2--2-----2--2-|
           
A|-----4--4-----4--4-----4--4-----4--4---|
E|--0--0--0--0--0--0--0--0--0--0--0--0---|
C|---------------------------------------|
G|-----2--2-----2--2-----2--2-----2--2---|


Verse:
We used to have a dream...              we built it from rubble and dust
A|-----4--4-----4--4-----4--4-----4--4-----4--4-----4--4-----4--4-----4--4---|
E|--0--0--0--0--0--0--0--0--0--0--0--0--2--0--0--2--0--0--2--0--0--2--0--0---|
C|---------------------------------------------------------------------------|
G|-----2--2-----2--2-----2--2-----2--2-----2--2-----2--2-----2--2-----2--2---|

They whispered our names, burnt down our city, but i guess we'll build it again
A|-----4--4-----4--4-----4--4-----4--4-----4--4-----4--4-----4--4-|
E|--0--0--0--2--0--0-----0--0-----0--0-----0--0--2--0--0--2--0--0-|
C|----------------------------------------------------------------|
G|-----2--2-----2--2--2--------4--------2-----------2--2-----2--2-|
           
A|-----4--4-----4--4-----4--4-----4--4---|
E|--0--0--0--0--0--0--0--0--0--0--0--0---|
C|---------------------------------------|
G|-----2--2-----2--2-----2--2-----2--2---|

-Humming-
A|-----4--4-----4--4-----4--4-----4--4-----4--4-----4--4-----4--4-|
E|--0--0--0--2--0--0-----0--0-----0--0-----0--0--2--0--0--2--0--0-|
C|----------------------------------------------------------------|
G|-----2--2-----2--2--2--------4--------2-----------2--2-----2--2-|
           
A|-----4--4-----4--4-----4--4-----4--4---|
E|--0--0--0--0--0--0--0--0--0--0--0--0---|
C|---------------------------------------|
G|-----2--2-----2--2-----2--2-----2--2---|
                             
A|-----4--4-----4--4-----4--4-----4--4---|
E|--0--0--0--0--0--0--0--0--0--0--0--0---|
C|---------------------------------------|
G|-----2--2-----2--2-----2--2-----2--2---|


Verse:
Once a man told me...                   to do what my heart says         
A|-----4--4-----4--4-----4--4-----4--4-----4--4-----4--4-----4--4-----4--4---|
E|--0--0--0--0--0--0--0--0--0--0--0--0--2--0--0--2--0--0--2--0--0--2--0--0---|
C|---------------------------------------------------------------------------|
G|-----2--2-----2--2-----2--2-----2--2-----2--2-----2--2-----2--2-----2--2---|
           
But what do we do when all hope is lost, and the things we treasure the most?                                                                                    
A|-----4--4-----4--4-----4--4-----4--4-----4--4-----4--4-----4--4-|
E|--0--0--0--2--0--0-----0--0-----0--0-----0--0--2--0--0--2--0--0-|
C|----------------------------------------------------------------|
G|-----2--2-----2--2--2--------4--------2-----------2--2-----2--2-|
           
A|-----4--4-----4--4-----4--4-----4--4---|
E|--0--0--0--0--0--0--0--0--0--0--0--0---|
C|---------------------------------------|
G|-----2--2-----2--2-----2--2-----2--2---|


Chorus:
Running away our backs against the world                                                                         
A|-----4--4-----4--4-----4--4-----4--4-----4--4-----4--4-----4--4-----4--4---|
E|-----0--0-----0--0-----0--0--2--0--0--0--0--0--0--0--0--0--0--0--0--0--0---|
C|---------------------------------------------------------------------------|
G|--2--------4--------2-----------2--2-----2--2-----2--2-----2--2-----2--2---|

Running away our heads up high
A|-----4--4-----4--4-----4--4-----4--4-----4--4-----4--4-----4--4-----4--4---|
E|-----0--0-----0--0-----0--0--2--0--0--0--0--0--0--0--0--0--0--0--0--0--0---|
C|---------------------------------------------------------------------------|
G|--2--------4--------2-----------2--2-----2--2-----2--2-----2--2-----2--2---|

we havent lost everything you see
A|-----4--4-----4--4-----4--4-----4--4-----4--4-----4--4-----4--4-----4--4---|
E|-----0--0-----0--0-----0--0--2--0--0--0--0--0--0--0--0--0--0--0--0--0--0---|
C|---------------------------------------------------------------------------|
G|--2--------4--------2-----------2--2-----2--2-----2--2-----2--2-----2--2---|

What we have left
A|-----4--4-----4--4-----4--4-----4--4---|
E|-----0--0-----0--0-----0--0-----0--0---|
C|---------------------------------------|
G|--1--------1--------1--------1---------|

is here
A|-----4--4-----4--4-----4--4-----4--4-----4--4-|
E|--0--0--0--2--0--0-----0--0-----0--0-----0--0-|
C|----------------------------------------------|
G|-----2--2-----2--2--2--------4--------2-------|

A|-----4--4-----4--4-----4--4-----4--4-----4--4-|
E|-2---0--0--0--0--0--0--0--0--0--0--0--0--0--0-|
C|----------------------------------------------|
G|-----2--------2--2-----2--2-----2--2-----2--2-|
                                           
A|-----4--4-----4--4-----4--4-----4--4---|
E|--0--0--0--0--0--0--0--0--0--0--0--0---|
C|---------------------------------------|
G|-----2--2-----2--2-----2--2-----2--2---|


Verse:
It was so simple...                     in a sanctuary that's so strong
A|-----4--4-----4--4-----4--4-----4--4-----4--4-----4--4-----4--4-----4--4---|
E|--0--0--0--0--0--0--0--0--0--0--0--0--2--0--0--2--0--0--2--0--0--2--0--0---|
C|---------------------------------------------------------------------------|
G|-----2--2-----2--2-----2--2-----2--2-----2--2-----2--2-----2--2-----2--2---|

They torn down our walls, so we'll get back what's ours... and fight with all our hearts
A|-----4--4-----4--4-----4--4-----4--4-----4--4-----4--4-----4--4-|
E|--0--0--0--2--0--0-----0--0-----0--0-----0--0--2--0--0--2--0--0-|
C|----------------------------------------------------------------|
G|-----2--2-----2--2--2--------4--------2-----------2--2-----2--2-|
           
A|-----4--4-----4--4-----4--4-----4--4---|
E|--0--0--0--0--0--0--0--0--0--0--0--0---|
C|---------------------------------------|
G|-----2--2-----2--2-----2--2-----2--2---|
                                  
A|-----4--4-----4--4-----4--4-----4--4---|
E|--0--0--0--0--0--0--0--0--0--0--0--0---|
C|---------------------------------------|
G|-----2--2-----2--2-----2--2-----2--2---|


Chorus:
Running away our backs against the world
A|-----4--4-----4--4-----4--4-----4--4-----4--4-----4--4-----4--4-----4--4---|
E|-----0--0-----0--0-----0--0--2--0--0--0--0--0--0--0--0--0--0--0--0--0--0---|
C|---------------------------------------------------------------------------|
G|--2--------4--------2-----------2--2-----2--2-----2--2-----2--2-----2--2---|

Running away our heads up high
A|-----4--4-----4--4-----4--4-----4--4-----4--4-----4--4-----4--4-----4--4---|
E|-----0--0-----0--0-----0--0--2--0--0--0--0--0--0--0--0--0--0--0--0--0--0---|
C|---------------------------------------------------------------------------|
G|--2--------4--------2-----------2--2-----2--2-----2--2-----2--2-----2--2---|

we havent lost everything you see
A|-----4--4-----4--4-----4--4-----4--4-----4--4-----4--4-----4--4-----4--4---|
E|-----0--0-----0--0-----0--0--2--0--0--0--0--0--0--0--0--0--0--0--0--0--0---|
C|---------------------------------------------------------------------------|
G|--2--------4--------2-----------2--2-----2--2-----2--2-----2--2-----2--2---|

What we have left
A|-----4--4-----4--4-----4--4-----4--4---|
E|-----0--0-----0--0-----0--0-----0--0---|
C|---------------------------------------|
G|--1--------1--------1--------1---------|

is here -x2-                                     
A|------4--4-----4--4-----4--4------4--4-----4--4-----4--4-----4--4-----4--4---|
E|------0--0-----0--0-----0--0---2--0--0--0--0--0--0--0--0--0--0--0--0--0--0---|
C|-----------------------------------------------------------------------------| 
G|---2--------4--------2------------2--2-----2--2-----2--2-----2--2-----2--2---|
         

Outro:  
Running away our backs against the world                                                                    
A|-----4--4-----4--4-----4--4-----4--4-----4--4-----4--4-----4--4-----4--4---|
E|-----0--0-----0--0-----0--0--2--0--0--0--0--0--0--0--0--0--0--0--0--0--0---|
C|---------------------------------------------------------------------------|
G|--2--------4--------2-----------2--2-----2--2-----2--2-----2--2-----2--2---|

Running away our heads up high
A|-----4--4-----4--4-----4--4-----4--4-----4--4-----4--4-----4--4-----4--4---|
E|-----0--0-----0--0-----0--0--2--0--0--0--0--0--0--0--0--0--0--0--0--0--0---|
C|---------------------------------------------------------------------------|
G|--2--------4--------2-----------2--2-----2--2-----2--2-----2--2-----2--2---|

we havent lost everything you see
A|-----4--4-----4--4-----4--4-----4--4-----4--4-----4--4-----4--4-----4--4---|
E|-----0--0-----0--0-----0--0--2--0--0--0--0--0--0--0--0--0--0--0--0--0--0---|
C|---------------------------------------------------------------------------|
G|--2--------4--------2-----------2--2-----2--2-----2--2-----2--2-----2--2---|

What we have left
 
is here
+4
0